Berkreasi Dengan "Paint"

Mungkin sudah tidak asing di telinga anda tentang aplikasi-aplikasi pengolah gambar seperti "Adobe Photoshop" atau "Corel Draw", tapi pernahkah anda mencoba berkarya dengan aplikasi yang satu ini, "Paint" ???

Read more
image01

Cara Mentrasfer File

Baiklah sobat bloger yang berbahagia, pada kesempatan ini saya akan berbagi ilmu saya yang telah saya dapat dari pengalaman saya juga yaitu Cara Mentransfer File dengan Wireless LAN (Adhoc dan sebagai-nya) di Windows 7. Pertama kali saya dapat ilmu ini ketika saya di ajarkan tentang kabel LAN (UTP) tepatnya cross dan straight dan IP-IP oleh guru saya. Q : “lho kog beda gan sumber pengalamannya dengan apa yang di post kan ?”, A : “ya,.. itulah jalan pemikiran saya dan bukti bahwa itu lah yang saya temukan :D”.

Read more
image01

LAN Wireless

Cara Membuat LAN Wireless tanpa kabel untuk laptop.

Read more
image01

ROMS PS 1 Terbaik

Bagi yang dulunya merupakan penggemar PS 1, ini sekedar untuk bernostalgia.

Read more
image01

Senin, 05 Agustus 2013

James Blunt - "Bonfire Heart" Guitar Tabs




I've listened to the James blunt's new single "Bonfire Heart", and I tried to find a way to play that song with guitar..

I think it's close enough,                                                                                                                  
hope you like it..                                                                                                                                    
                                                                                                                                                             
                                                                                                                                                               

No Capo

notice :
C* : x 3 5 5 5 3
G* : 3 5 5 4 3 3

Intro :
(hold C and play like this)
e|---------------------------------------
B|---1---------1---------1---------1-----
G|-------0---------0---------0-------0---
D|---------2---------2---------2-------2-
A|-3---3-----3---3-----3---3-----3-------
E|---------------------------------------


Verse :
(hold C)
e|---------------------------------------
B|---1---------1---------1---------1-----
G|-------0---------0---------0-------0---
D|---------2---------2---------2-------2-
A|-3---3-----3---3-----3---3-----3-------
E|---------------------------------------
(hold Em)
e|---------------------------------------
B|---0---------0---------0---------0-----
G|-------0---------0---------0-------0---
D|---------2---------2---------2-------2-
A|---------------------------------------
E|-0---0-----0---0-----0---0-----0-------
(hold C)
e|---------------------------------------
B|---1---------1---------1---------1-----
G|-------0---------0---------0-------0---
D|---------2---------2---------2-------2-
A|-3---3-----3---3-----3---3-----3-------
E|---------------------------------------
(hold Em)
e|---------------------------------------
B|---0---------0---------0---------0-----
G|-------0---------0---------0-------0---
D|---------2---------2---------2-------2-
A|---------------------------------------
E|-0---0-----0---0-----0---0-----0-------

(hold F)
e|---------------------------------------
B|---1---------1---------1---------1-----
G|-------2---------2---------2-------2---
D|---------3---------3---------3-------3-
A|---------------------------------------
E|-1---1-----1---1-----1---1-----1-------
(hold Am)
e|---0---------0---------0---------0-----
B|-------1---------1---------1-------1---
G|---------2---------2---------2-------2-
D|---------------------------------------
A|-0---0-----0---0-----0---0-----0-------
E|---------------------------------------
(hold C*)
e|---3---------3---------3---------3-----
B|-------5---------5---------5-------5---
G|---------5---------5---------5-------5-
D|---------------------------------------
A|-3---3-----3---3-----3---3-----3-------
E|---------------------------------------
(hold G*)
e|---------------------------------
B|---3---------3---------3---------
G|-------4---------4---------4-----
D|---------5---------5---------5---
A|---------------------------------
E|-3---3-----3---3-----3---3-----3-

Chorus :

(hold C)
e|---------------------------------------
B|---1---------1---------1---------1-----
G|-------0---------0---------0-------0---
D|---------2---------2---------2-------2-
A|-3---3-----3---3-----3---3-----3-------
E|---------------------------------------
(hold Am)
e|---------------------------------------
B|---1---------1---------1---------1-----
G|-------2---------2---------2-------2---
D|---------2---------2---------2-------2-
A|-0---0-----0---0-----0---0-----0-------
E|---------------------------------------
(hold F)
e|---------------------------------------
B|---1---------1---------1---------1-----
G|-------2---------2---------2-------2---
D|---------3---------3---------3-------3-
A|---------------------------------------
E|-1---1-----1---1-----1---1-----1-------

(hold C and than G)
e|---0---------0---------------------------
B|-------1---------1-----3---------3-------
G|---------0---------0-------0---------0---
D|-----------------------------0---------0-
A|-3---3-----3---3-----3---3-----3---3-----
E|-----------------------------------------


Outro : 


e|-------0-------0-------0-------0-
B|-----3-------3-------3-------3---
G|---2-------2-------2-------2-----
D|-3-------3-------3-------3-------
A|---------------------------------
E|---------------------------------


e|-------0-------0-------0-------0-
B|-----3-------3-------3-------3---
G|---0-------0-------0-------0-----
D|-2-------2-------2-------2-------
A|---------------------------------
E|---------------------------------


e|-------0-------0-------0-------0-
B|-----3-------3-------3-------3---
G|---2-------2-------2-------2-----
D|-2-------2-------2-------2-------
A|---------------------------------
E|---------------------------------


e|---------------------------------
B|-------3-------3-------3-------3-
G|-----5-------5-------5-------5---
D|---5-------5-------5-------5-----
A|-5-------5-------5-------5-------
E|---------------------------------

Lyrics :

Verse 1
Your mouth is a revolver firing bullets in the sky.
Your love is like a soldier, loyal till you die.
And I’ve been looking at the stars for a long, long time.
I’ve been putting out fires all my life.
Everybody wants a flame, but they don’t want to get burnt.
And today is our turn.

Chorus  
Days like these lead to nights like this leads to love like ours,
You light the spark in my bonfire heart.
People like us, we don’t need that much.
Just someone that starts, starts the spark in our bonfire hearts.


Verse 2
This world is getting colder. Strangers passing by.
No one offers you a shoulder. No one looks you in the eye.
But I’ve been looking at you for a long, long time.
Just trying to break through, trying to make you mine.
Everybody wants a flame, they don’t want to get burnt
Well today is our turn.

Chorus
Days like these lead to nights like this leads to love like ours,
You light a spark in my bonfire heart.
People like us, we don’t need that much.
Just someone that starts, starts a spark in our bonfire hearts.

Outro
Hmm, our bonfire hearts
our bonfire hearts
Uh, our bonfire hearts
You light the spark
People like us, we don’t need that much.
Just someone that starts, starts a spark in our bonfire hearts.

Chorus
Days like these lead to nights like this leads to love like ours,
You light a spark in my bonfire heart.
People like us, we don’t need that much.
Just someone that starts, starts a spark in our bonfire hearts.
our bonfire hearts
Days like these lead to nights like this leads to love like ours,
You light a spark in my bonfire heart.
People like us, we don’t need that much.
Just someone that starts, starts a spark in our bonfire hearts.
People like us, we don’t need that much.
Just someone that starts, starts a spark in our bonfire hearts.


please leave any comment.. :)


Senin, 18 Maret 2013

Air


Jadikanlah hatimu seperti air,



yang lembut, tak akan menyakiti siapapun,


yang sejuk, padamkan jiwa yang panas,


yang jernih, tercermin kejujuran dan ketulusan,


yang selalu mengalir ke bawah, melambangkan kerendahan hati,


yang tak akan berbekas jika disayat pisau, selalu memaafkan.




-Arief Pribadi-





Rabu, 27 Februari 2013

James Blunt - "Shine On" Tabs

 James Blunt - Shine On tabs. 

 I think it's close enough, hope you enjoy it :)
 Tabbed by Arief Pribadi, 
 XII IPA 1 SMANTI                                             
                                                             
                                                              
                                                             
Intro:

e|-----0---------0---------0---------0---------0---------0----
B|---1---1-----1---1-----1---------1---------1---------1------
G|---------0---------0-------2---------2---------2---------0--
D|-----------------------------2---------0---------0---------0
A|-3---3-----3---3-----0---0-----0---0------------------------
E|-----------------------------------------1---1-----3---3----

e|-----0---------0----
B|---1---------1------
G|-------0---------0--
D|---------2---------2
A|-3---3-----3---3----
E|--------------------

verse:

e|-----0---------0---------0---------0---------0---------0-----
B|---1---------1---------1---------1---------1---------1-------
G|-------0---------0---------2---------2---------2---------2---
D|---------2---------0---------2---------0---------3---------0-
A|-3---3-----3---3-----0---0-----0---0-------------------------
E|-----------------------------------------1---1-----1---1-----

    Are they calling for our last dance?     I see it

e|-----0---------0---------0---------0----
B|---1---------1---------1---------1------
G|-------0---------0---------2---------2--
D|---------0---------0---------0---------0
A|-3---3---------------0---0--------------
E|-----------3---3---------------1---1----

   in your eyes.........

e|-----0---------0---------0---------0----
B|---1---------1---------1---------1------
G|-------0---------0---------2---------2--
D|---------0---------0---------0---------0
A|-3---3---------------0---0--------------
E|-----------3---3---------------1---1----

   in your eyes.........

e|-----0---------0---------0---------0---------0---------0-----
B|---1---------1---------1---------1---------1---------1-------
G|-------0---------0---------2---------2---------2---------2---
D|---------2---------0---------2---------0---------3---------0-
A|-3---3-----3---3-----0---0-----0---0-------------------------
E|-----------------------------------------1---1-----1---1-----

      Same old moves for a new romance, I could use       

e|-----0---------0---------0---------0----
B|---1---------1---------1---------1------
G|-------0---------0---------2---------2-- 
D|---------0---------0---------0---------0
A|-3---3---------------0---0--------------
E|-----------3---3---------------1---1----

   the same old lies....

             G
 but I'll sing


chorus:

       C 
Shine on, just, shine on!
             G
Close your eyes and they’ll all be gone.
             Am
They can scream and shout that they’ve been sold out,
          F
But it paid for the cloud that we're dancing on.

          C 
So Shine on. Just Shine on!
             G
With your smile just as bright as the sun.
                Am
'Cause they're all just slaves to the gods they made.
      F
But you and I just shone.
         G
Just shone.



verse:

e|-----0---------0---------0---------0---------0---------0-----
B|---1---------1---------1---------1---------1---------1-------
G|-------0---------0---------2---------2---------2---------2---
D|---------2---------0---------2---------0---------3---------0-
A|-3---3-----3---3-----0---0-----0---0-------------------------
E|-----------------------------------------1---1-----1---1-----

     And when silence greets my last goodbye, the words I need 

e|-----0---------0---------0---------0----
B|---1---------1---------1---------1------
G|-------0---------0---------2---------2--
D|---------0---------0---------0---------0
A|-3---3---------------0---0--------------
E|-----------3---3---------------1---1----

    are in your eyes 

              G
  and I’ll sing


chorus:

       C 
Shine on, just, shine on!
             G
Close your eyes and they’ll all be gone.
             Am
They can scream and shout that they’ve been sold out,
          F
But it paid for the cloud that we're dancing on.
          C
So Shine on. Just Shine on!
             G
With your smile just as bright as the sun.
                Am
'Cause they're all just slaves to the gods they made.
      F
But you and I just shone.
        G
Just shone 




e|---------------------
B|-6-5h6p5-----------8-
G|---------7h9p7-------
D|---------------9-5---
A|---------------------
E|---------------------

e|---------------------7-7h8p7h8p7/13-
B|-6-5h6p5-----------8----------------
G|---------7h9p7----------------------
D|---------------9-5------------------
A|------------------------------------
E|------------------------------------




e|-------------------8p7-
B|-6-5h6p5---------------
G|---------7h9p7---------
D|---------------9-5-----
A|-----------------------
E|-----------------------


chorus:

       C 
Shine on, just, shine on!
             G
Close your eyes and they’ll all be gone.
             Am
They can scream and shout that they’ve been sold out,
          F
But it paid for the cloud that we're dancing on.
          C
So Shine on. Just Shine on!
             G
With your smile just as bright as the sun.
                Am
'Cause they're all just slaves to the gods they made.
      F
But you and I just shone.
        G
Just shone 

G  C

updated 30/05/2013

Rabu, 06 Februari 2013

James Blunt - "You're Beautiful" chords


 
song: you're beautiful
artist: james blunt
standard tunning
capo on the 8th

chords used:
       E A D G B e
       -----------
 G     3 2 0 0 3 3
 G/F#  2 - 0 0 3 3
 Em7   0 2 2 0 3 3
 Cadd9 - 3 2 0 3 3
 D/F#  2 0 0 2 3 3 
 
 
intro
=====
G G/F# Em7 Cadd9   x2

verse 1
=======
G                      G/F# Em7 Cadd9
My life is brilliant.
G
My life is brilliant.
G/F#
My love is pure.
Em7
I saw an angel.
Cadd9
Of that I'm sure.
    G
She smiled at me on the subway.
 G/F#
She was with another man.
    Em7
But I won't lose no sleep on that,
       Cadd9   D/F#
'Cause I've got a plan.

chorus
======
Cadd9      D/F# Em7        D/F#
You're beautiful. You're beautiful.
Cadd9       D/F#      G
You're beautiful, it's true.
  Cadd9    D/F#      G   D/F# Em7
I saw your face in a crowded  place,
      Cadd9  D/F#  Em7
And I don't know what to do.
            Cadd9 D/F#    G G/F# Em7 Cadd9
'Cause I'll never be with you. 

verse 2
=======
   G
Yeah, she caught my eye, 
      G/F#
As we walked on by.
   Em7
She could see from my face that I was, 
Cadd9
  Fucking high, 
    G       G/F#
And I don't think that I'll see her again, 
    Em7     Cadd9
But we shared a moment that will last till the end. 

chorus
======
Cadd9      D/F# Em7        D/F#
You're beautiful. You're beautiful.
Cadd9       D/F#      G
You're beautiful, it's true.
  Cadd9    D/F#      G   D/F# Em7
I saw your face in a crowded  place,
      Cadd9  D/F#  Em7
And I don't know what to do.
            Cadd9 D/F#    G
'Cause I'll never be with you.

interlude
=========
Cadd9      Em7   Cadd9   D/F#  Cadd9-->D/F# (half timming)
  La la la la, la la la la, la la la la, la

outro
=====
Cadd9      D/F# Em7        D/F#
You're beautiful. You're beautiful.
Cadd9       D/F#      G
You're beautiful, it's true.
      Cadd9  D/F#       G        D/F# Em7
There must be an angel with a smile on her  face,
  Cadd9     D/F#          G D/F# Em7 
When she thought up that I should be with you. 
  Cadd9   D/F#   Em7
But it's time to face the truth, 
       Cadd9 D/F#     G
I will never be with you.
 
 
Sumber:http://tabs.ultimate-guitar.com/j/james_blunt/youre_beautiful_crd.htm 
  

Kamis, 24 Januari 2013

"Hujan Turun Lagi"


 Hujan Turun Lagi



kupandangi awan yang mulai menghitam
angin berhembus kencang
menggoda daun-daun dan rerumputan
bergoyang ikuti irama

langit yang biru kini tlah berubah
menjadi abu-abu
irama dunia seolah bicara
akan turun hujan



dan jatuh lah air mata langit
haru larut dalam rindu
lama tak jumpa sahabat lama
tanah yang gersang

dan jatuhlah air mata langit
haru larut dalam rindu
lama menanti tuk hari ini
hujan, turun lagi.....


pengarang : Arief Pribadi 
ilustrator : Arief Pribadi



Senin, 21 Januari 2013

Bekreasi dengan "Paint"

 Mungkin sudah tidak asing di telinga anda tentang aplikasi-aplikasi pengolah gambar seperti "Adobe Photoshop" atau "Corel Draw",
tapi pernahkah anda mencoba berkarya dengan aplikasi yang satu ini,
 "Paint"
???

mungkin tidak, mungkin juga pernah,
tapi saya kira walaupun pernah, pasti sangat jarang (menurut saya sih)..

Penyebab kenapa progam Paint jarang digunakan adalah karena fitur-fitur yang ada di progam Paint masih saangat sederhana, saangat terbatas untuk bisa menampung ide-ide luar biasa yang ada di benak anda.
Tapi, jika anda memang seorang seniman sejati, saya rasa bagi anda keterbatasan bukanlah halangan untuk bisa berkarya.
Lagipula, kalau dengan program sekelas Paint saja anda bisa menghasilkan karya-karya yang luar biasa, apalagi kalau anda menggunakan aplikasi seperti "Adobe Photoshop" dan "Corel Draw"?

berikut ini adalah kaya-karya hasil iseng saya, dengan program Paint pada Windows7..





















bagaimana menurut para pembaca sekalian?

pada akhinya, saya ingin menyampaikan sesuatu kepada para pembaca sekalian, yang baik hatinya.
Begini, post ini hanya sekedar motivasi bagi kita semua, agar kita semua tetap bisa berkarya dengan maksimal, meskipun dengan fasilitas yang minimal.
Maksimmalkan apa yang ada, jangan mengeluh, dan tetap semangat..!!
jadilah pemuda Indonesia yang gemar berkarya... :)



Kamis, 17 Januari 2013

James Blunt - "Shine On" chords

James Blunt "Shine On"
This is one of my favorite songs,
i think it's close enough, i hope you like it..
                                                                                                                                                                   
capo on 7th fret

play G like this : 320010
and F : 133210

intro: C Am F G C

C                           Am
Are they calling for our last dance?
F                    C G Am F
I see it in your eyes............
            C G Am F
In your eyes.............
C                           Am
Same old moves for a new romance.
F                                    C G Am F
I could use the same old lies.............., 
               G
but I'll sing,

C     
Shine on, just, shine on!
G
Close your eyes and they’ll all be gone.
Am
They can scream and shout that they’ve been sold out,
F
But it paid for the cloud that we're dancing on.
C
So Shine on. Just Shine on!
G
With your smile just as bright as the sun.
Am
'Cause they're all just slaves to the gods they made.
F                                                     G
But you and I just shone, just shone.

C                                  Am
And when silence greets my last goodbye,
F                                           C G AM F
The words I need are in your eyes............., 
               G
and I’ll sing,

C
Shine on, just, shine on!
G
Close your eyes and they’ll all be gone.
Am
They can scream and shout that they’ve been sold out,
F
But it paid for the cloud that we're dancing on.
C
So Shine on. just shine on!
G
With your smile just as bright as the sun.
Am
'Cause they're all just slaves to the gods they made.
F                                                G
But you and I just shone, just shone.

F   G
F   G
F   G

C
So shine on, just, shine on!
G
Close your eyes and they’ll all be gone.
Am
They can scream and shout that they’ve been sold out,
F
But it paid for the cloud that we're dancing on.
C
So Shine on, just shine on!
G
With your smile just as bright as the sun.
Am
'Cause they're all just slaves to the gods they made.
F                                                 G
But you and I just shone, just shone.

G    C